  0
SECTION
  2
HEADER
  9
$ACADVER
  1
AC1009
  9
$INSBASE
 10
0.0
 20
0.0
 30
0.0
  9
$EXTMIN
 10
6.708415
 20
7.273148
 30
0.0
  9
$EXTMAX
 10
38.049682
 20
25.218703
 30
0.0
  9
$LIMMIN
 10
0.0
 20
0.0
  9
$LIMMAX
 10
44.0
 20
34.0
  9
$ORTHOMODE
 70
     0
  9
$REGENMODE
 70
     1
  9
$FILLMODE
 70
     1
  9
$QTEXTMODE
 70
     0
  9
$MIRRTEXT
 70
     1
  9
$DRAGMODE
 70
     2
  9
$LTSCALE
 40
1.0
  9
$OSMODE
 70
     0
  9
$ATTMODE
 70
     1
  9
$TEXTSIZE
 40
0.375
  9
$TRACEWID
 40
0.05
  9
$TEXTSTYLE
  7
ROMAND
  9
$CLAYER
  8
WOOD
  9
$CELTYPE
  6
BYLAYER
  9
$CECOLOR
 62
   256
  9
$DIMSCALE
 40
1.0
  9
$DIMASZ
 40
0.25
  9
$DIMEXO
 40
0.0625
  9
$DIMDLI
 40
0.38
  9
$DIMRND
 40
0.0
  9
$DIMDLE
 40
0.0
  9
$DIMEXE
 40
0.18
  9
$DIMTP
 40
0.0
  9
$DIMTM
 40
0.0
  9
$DIMTXT
 40
0.18
  9
$DIMCEN
 40
0.09
  9
$DIMTSZ
 40
0.0
  9
$DIMTOL
 70
     0
  9
$DIMLIM
 70
     0
  9
$DIMTIH
 70
     1
  9
$DIMTOH
 70
     1
  9
$DIMSE1
 70
     0
  9
$DIMSE2
 70
     0
  9
$DIMTAD
 70
     0
  9
$DIMZIN
 70
     0
  9
$DIMBLK
  1

  9
$DIMASO
 70
     1
  9
$DIMSHO
 70
     0
  9
$DIMPOST
  1

  9
$DIMAPOST
  1

  9
$DIMALT
 70
     0
  9
$DIMALTD
 70
     2
  9
$DIMALTF
 40
25.4
  9
$DIMLFAC
 40
1.0
  9
$DIMTOFL
 70
     0
  9
$DIMTVP
 40
0.0
  9
$DIMTIX
 70
     0
  9
$DIMSOXD
 70
     0
  9
$DIMSAH
 70
     0
  9
$DIMBLK1
  1

  9
$DIMBLK2
  1

  9
$DIMSTYLE
  2
*UNNAMED
  9
$DIMCLRD
 70
     0
  9
$DIMCLRE
 70
     0
  9
$DIMCLRT
 70
     0
  9
$DIMTFAC
 40
1.0
  9
$DIMGAP
 40
0.09
  9
$LUNITS
 70
     4
  9
$LUPREC
 70
     4
  9
$SKETCHINC
 40
0.1
  9
$FILLETRAD
 40
0.0
  9
$AUNITS
 70
     0
  9
$AUPREC
 70
     0
  9
$MENU
  1
acad
  9
$ELEVATION
 40
0.0
  9
$PELEVATION
 40
0.0
  9
$THICKNESS
 40
0.0
  9
$LIMCHECK
 70
     0
  9
$BLIPMODE
 70
     1
  9
$CHAMFERA
 40
0.0
  9
$CHAMFERB
 40
0.0
  9
$SKPOLY
 70
     0
  9
$TDCREATE
 40
2449090.492816435
  9
$TDUPDATE
 40
2450196.437937962
  9
$TDINDWG
 40
0.0124954861
  9
$TDUSRTIMER
 40
0.0124954861
  9
$USRTIMER
 70
     1
  9
$ANGBASE
 50
0.0
  9
$ANGDIR
 70
     0
  9
$PDMODE
 70
     0
  9
$PDSIZE
 40
0.0
  9
$PLINEWID
 40
0.0
  9
$COORDS
 70
     2
  9
$SPLFRAME
 70
     0
  9
$SPLINETYPE
 70
     6
  9
$SPLINESEGS
 70
     8
  9
$ATTDIA
 70
     0
  9
$ATTREQ
 70
     1
  9
$HANDLING
 70
     0
  9
$HANDSEED
  5
0
  9
$SURFTAB1
 70
     6
  9
$SURFTAB2
 70
     6
  9
$SURFTYPE
 70
     6
  9
$SURFU
 70
     6
  9
$SURFV
 70
     6
  9
$UCSNAME
  2

  9
$UCSORG
 10
0.0
 20
0.0
 30
0.0
  9
$UCSXDIR
 10
1.0
 20
0.0
 30
0.0
  9
$UCSYDIR
 10
0.0
 20
1.0
 30
0.0
  9
$PUCSNAME
  2

  9
$PUCSORG
 10
0.0
 20
0.0
 30
0.0
  9
$PUCSXDIR
 10
1.0
 20
0.0
 30
0.0
  9
$PUCSYDIR
 10
0.0
 20
1.0
 30
0.0
  9
$USERI1
 70
     0
  9
$USERI2
 70
     0
  9
$USERI3
 70
     0
  9
$USERI4
 70
     0
  9
$USERI5
 70
     0
  9
$USERR1
 40
0.0
  9
$USERR2
 40
0.0
  9
$USERR3
 40
0.0
  9
$USERR4
 40
0.0
  9
$USERR5
 40
0.0
  9
$WORLDVIEW
 70
     1
  9
$SHADEDGE
 70
     3
  9
$SHADEDIF
 70
    70
  9
$TILEMODE
 70
     1
  9
$MAXACTVP
 70
    16
  9
$PINSBASE
 10
0.0
 20
0.0
 30
0.0
  9
$PLIMCHECK
 70
     0
  9
$PEXTMIN
 10
1.000000E+20
 20
1.000000E+20
 30
1.000000E+20
  9
$PEXTMAX
 10
-1.000000E+20
 20
-1.000000E+20
 30
-1.000000E+20
  9
$PLIMMIN
 10
0.0
 20
0.0
  9
$PLIMMAX
 10
12.0
 20
9.0
  9
$UNITMODE
 70
     0
  9
$VISRETAIN
 70
     0
  9
$PLINEGEN
 70
     0
  9
$PSLTSCALE
 70
     0
  9
$TREEDEPTH
 70
  3020
  9
$DWGCODEPAGE
  3
undefined
  0
ENDSEC
  0
SECTION
  2
TABLES
  0
TABLE
  2
VPORT
 70
     2
  0
VPORT
  2
*ACTIVE
 70
     0
 10
0.0
 20
0.0
 11
1.0
 21
1.0
 12
30.047619
 22
17.0
 13
0.0
 23
0.0
 14
1.0
 24
1.0
 15
0.0
 25
0.0
 16
0.0
 26
0.0
 36
1.0
 17
0.0
 27
0.0
 37
0.0
 40
34.0
 41
1.767507
 42
50.0
 43
0.0
 44
0.0
 50
0.0
 51
0.0
 71
     0
 72
   100
 73
     1
 74
     1
 75
     0
 76
     1
 77
     0
 78
     0
  0
ENDTAB
  0
TABLE
  2
LTYPE
 70
     3
  0
LTYPE
  2
CONTINUOUS
 70
    64
  3
Solid line
 72
    65
 73
     0
 40
0.0
  0
LTYPE
  2
DASHED
 70
    64
  3
__ __ __ __ __ __ __ __ __ __ __ __ __ __ __
 72
    65
 73
     2
 40
0.75
 49
0.5
 49
-0.25
  0
LTYPE
  2
HIDDEN
 70
     0
  3
_ _ _ _ _ _ _ _ _ _ _ _ _ _ _ _ _ _ _ _ _ _ _
 72
    65
 73
     2
 40
0.375
 49
0.25
 49
-0.125
  0
ENDTAB
  0
TABLE
  2
LAYER
 70
     6
  0
LAYER
  2
0
 70
    64
 62
     7
  6
CONTINUOUS
  0
LAYER
  2
DIM
 70
    64
 62
     6
  6
CONTINUOUS
  0
LAYER
  2
PANEL
 70
    64
 62
     4
  6
CONTINUOUS
  0
LAYER
  2
WOOD
 70
    64
 62
     2
  6
CONTINUOUS
  0
LAYER
  2
CLIP
 70
    64
 62
     9
  6
CONTINUOUS
  0
LAYER
  2
FLASH
 70
    64
 62
     1
  6
CONTINUOUS
  0
ENDTAB
  0
TABLE
  2
STYLE
 70
     2
  0
STYLE
  2
STANDARD
 70
     0
 40
0.0
 41
1.0
 50
0.0
 71
     0
 42
0.2
  3
txt
  4

  0
STYLE
  2
ROMAND
 70
    64
 40
0.375
 41
1.0
 50
0.0
 71
     0
 42
0.375
  3
romand
  4

  0
ENDTAB
  0
TABLE
  2
VIEW
 70
     0
  0
ENDTAB
  0
TABLE
  2
UCS
 70
     0
  0
ENDTAB
  0
TABLE
  2
APPID
 70
     1
  0
APPID
  2
ACAD
 70
    64
  0
ENDTAB
  0
TABLE
  2
DIMSTYLE
 70
     0
  0
ENDTAB
  0
ENDSEC
  0
SECTION
  2
BLOCKS
  0
ENDSEC
  0
SECTION
  2
ENTITIES
  0
LINE
  8
PANEL
 10
16.941568
 20
17.621701
 30
0.0
 11
16.940602
 21
18.501781
 31
0.0
  0
LINE
  8
FLASH
 10
18.102923
 20
17.361521
 30
0.0
 11
17.135493
 21
17.694634
 31
0.0
  0
SOLID
  8
0
 10
17.387321
 20
17.600184
 30
0.0
 11
17.927201
 21
17.406614
 31
0.0
 12
17.351699
 22
17.500614
 32
0.0
 13
17.891711
 23
17.307417
 33
0.0
  0
SOLID
  8
DIM
 10
17.164205
 20
17.375123
 30
0.0
 11
17.215952
 21
17.309803
 31
0.0
 12
17.386039
 22
17.497704
 32
0.0
 13
17.386039
 23
17.497704
 33
0.0
  0
SOLID
  8
DIM
 10
17.453772
 20
19.616366
 30
0.0
 11
17.381409
 21
19.657694
 31
0.0
 12
17.293607
 22
19.41994
 32
0.0
 13
17.293607
 23
19.41994
 33
0.0
  0
ARC
  8
FLASH
 10
19.811389
 20
18.413325
 30
0.0
 40
0.0625
 50
251.0
 51
71.0
  0
LINE
  8
FLASH
 10
19.791041
 20
18.354231
 30
0.0
 11
19.377377
 21
18.496667
 31
0.0
  0
LINE
  8
FLASH
 10
18.607789
 20
18.827758
 30
0.0
 11
19.752294
 21
18.433673
 31
0.0
  0
LINE
  8
FLASH
 10
18.102923
 20
17.361521
 30
0.0
 11
18.607789
 21
18.827758
 31
0.0
  0
SOLID
  8
DIM
 10
16.608315
 20
18.679759
 30
0.0
 11
16.554341
 21
18.616267
 31
0.0
 12
16.771803
 22
18.486089
 32
0.0
 13
16.771803
 23
18.486089
 33
0.0
  0
LINE
  8
FLASH
 10
16.125581
 20
19.748552
 30
0.0
 11
16.125581
 21
14.322609
 31
0.0
  0
LINE
  8
FLASH
 10
16.125581
 20
19.748552
 30
0.0
 11
19.831737
 21
18.47242
 31
0.0
  0
LINE
  8
DIM
 10
17.417591
 20
19.63703
 30
0.0
 11
20.361857
 21
24.792322
 31
0.0
  0
LINE
  8
DIM
 10
20.361857
 20
24.792322
 30
0.0
 11
21.268326
 21
24.792322
 31
0.0
  0
TEXT
  8
DIM
 10
21.45705
 20
24.843703
 30
0.0
 40
0.375
  1
PA-143 PEAK FLASHING
  7
ROMAND
 72
     4
 11
25.001693
 21
25.031203
 31
0.0
  0
TEXT
  8
DIM
 10
21.415703
 20
24.225993
 30
0.0
 40
0.375
  1
W/ "Z" CLOSURE
  7
ROMAND
  0
LINE
  8
DIM
 10
17.190079
 20
17.342463
 30
0.0
 11
14.241376
 21
15.006477
 31
0.0
  0
LINE
  8
DIM
 10
14.241376
 20
15.006477
 30
0.0
 11
13.734934
 21
15.006477
 31
0.0
  0
LINE
  8
DIM
 10
16.581328
 20
18.648013
 30
0.0
 11
13.949439
 21
20.885396
 31
0.0
  0
TEXT
  8
DIM
 10
8.861328
 20
20.740408
 30
0.0
 40
0.375
  1
3/4" TURN-UP
  7
ROMAND
  0
LINE
  8
DIM
 10
13.394288
 20
20.904552
 30
0.0
 11
13.949439
 21
20.885396
 31
0.0
  0
ARC
  8
CLIP
  6
CONTINUOUS
 10
21.350008
 20
15.474688
 30
0.0
 40
0.56374
 50
79.786568
 51
91.285498
  0
ARC
  8
CLIP
  6
CONTINUOUS
 10
22.768286
 20
14.986336
 30
0.0
 40
0.56374
 50
77.3698
 51
91.285498
  0
LINE
  8
CLIP
  6
DASHED
 10
23.757388
 20
16.28784
 30
0.0
 11
21.393592
 21
17.101761
 31
0.0
  0
TEXT
  8
DIM
 10
26.060335
 20
22.624247
 30
0.0
 40
0.375
  1
SNAP-ON BATTEN PANEL
  7
ROMAND
  0
LINE
  8
DIM
 10
21.439183
 20
17.844196
 30
0.0
 11
25.235838
 21
22.811747
 31
0.0
  0
SOLID
  8
DIM
 10
21.472288
 20
17.818894
 30
0.0
 11
21.406078
 21
17.869498
 31
0.0
 12
21.287372
 22
17.645567
 32
0.0
 13
21.287372
 23
17.645567
 33
0.0
  0
ARC
  8
CLIP
  6
CONTINUOUS
 10
21.350008
 20
15.474688
 30
0.0
 40
0.56374
 50
50.714502
 51
62.435754
  0
LINE
  8
CLIP
 10
20.950118
 20
14.314698
 30
0.0
 11
21.079454
 21
14.490666
 31
0.0
  0
LINE
  8
CLIP
 10
20.950118
 20
14.314698
 30
0.0
 11
20.955874
 21
14.503877
 31
0.0
  0
LINE
  8
CLIP
 10
21.544857
 20
15.842295
 30
0.0
 11
21.526371
 21
15.788607
 31
0.0
  0
LINE
  8
CLIP
 10
21.42194
 20
15.884619
 30
0.0
 11
21.390153
 21
15.792303
 31
0.0
  0
LINE
  8
CLIP
 10
21.390153
 20
15.792303
 30
0.0
 11
21.526371
 21
15.788607
 31
0.0
  0
LINE
  8
CLIP
 10
21.369838
 20
15.733302
 30
0.0
 11
21.506056
 21
15.729607
 31
0.0
  0
LINE
  8
CLIP
 10
21.369838
 20
15.733302
 30
0.0
 11
21.35213
 21
15.763559
 31
0.0
  0
LINE
  8
CLIP
 10
21.35213
 20
15.763559
 30
0.0
 11
21.390153
 21
15.792303
 31
0.0
  0
LINE
  8
CLIP
 10
21.506056
 20
15.729607
 30
0.0
 11
21.546504
 21
15.758285
 31
0.0
  0
LINE
  8
CLIP
 10
21.546504
 20
15.758285
 30
0.0
 11
21.526371
 21
15.788607
 31
0.0
  0
LINE
  8
CLIP
 10
21.369838
 20
15.733302
 30
0.0
 11
21.347829
 21
15.669385
 31
0.0
  0
LINE
  8
CLIP
 10
21.506056
 20
15.729607
 30
0.0
 11
21.484047
 21
15.66569
 31
0.0
  0
LINE
  8
CLIP
 10
21.327514
 20
15.610385
 30
0.0
 11
21.463732
 21
15.606689
 31
0.0
  0
LINE
  8
CLIP
 10
21.347829
 20
15.669385
 30
0.0
 11
21.484047
 21
15.66569
 31
0.0
  0
LINE
  8
CLIP
 10
21.309806
 20
15.640641
 30
0.0
 11
21.347829
 21
15.669385
 31
0.0
  0
LINE
  8
CLIP
 10
21.327514
 20
15.610385
 30
0.0
 11
21.309806
 21
15.640641
 31
0.0
  0
LINE
  8
CLIP
 10
21.463732
 20
15.606689
 30
0.0
 11
21.50418
 21
15.635368
 31
0.0
  0
LINE
  8
CLIP
 10
21.50418
 20
15.635368
 30
0.0
 11
21.484047
 21
15.66569
 31
0.0
  0
LINE
  8
CLIP
 10
21.28519
 20
15.487468
 30
0.0
 11
21.421408
 21
15.483772
 31
0.0
  0
LINE
  8
CLIP
 10
21.305505
 20
15.546468
 30
0.0
 11
21.441724
 21
15.542772
 31
0.0
  0
LINE
  8
CLIP
 10
21.267483
 20
15.517724
 30
0.0
 11
21.305505
 21
15.546468
 31
0.0
  0
LINE
  8
CLIP
 10
21.28519
 20
15.487468
 30
0.0
 11
21.267483
 21
15.517724
 31
0.0
  0
LINE
  8
CLIP
 10
21.421408
 20
15.483772
 30
0.0
 11
21.461856
 21
15.51245
 31
0.0
  0
LINE
  8
CLIP
 10
21.461856
 20
15.51245
 30
0.0
 11
21.441724
 21
15.542772
 31
0.0
  0
LINE
  8
CLIP
 10
21.242866
 20
15.36455
 30
0.0
 11
21.379084
 21
15.360855
 31
0.0
  0
LINE
  8
CLIP
 10
21.263182
 20
15.423551
 30
0.0
 11
21.3994
 21
15.419855
 31
0.0
  0
LINE
  8
CLIP
 10
21.225159
 20
15.394806
 30
0.0
 11
21.263182
 21
15.423551
 31
0.0
  0
LINE
  8
CLIP
 10
21.242866
 20
15.36455
 30
0.0
 11
21.225159
 21
15.394806
 31
0.0
  0
LINE
  8
CLIP
 10
21.379084
 20
15.360855
 30
0.0
 11
21.419532
 21
15.389533
 31
0.0
  0
LINE
  8
CLIP
 10
21.419532
 20
15.389533
 30
0.0
 11
21.3994
 21
15.419855
 31
0.0
  0
LINE
  8
CLIP
 10
21.200542
 20
15.241633
 30
0.0
 11
21.33676
 21
15.237937
 31
0.0
  0
LINE
  8
CLIP
 10
21.220858
 20
15.300633
 30
0.0
 11
21.357076
 21
15.296938
 31
0.0
  0
LINE
  8
CLIP
 10
21.182835
 20
15.271889
 30
0.0
 11
21.220858
 21
15.300633
 31
0.0
  0
LINE
  8
CLIP
 10
21.200542
 20
15.241633
 30
0.0
 11
21.182835
 21
15.271889
 31
0.0
  0
LINE
  8
CLIP
 10
21.33676
 20
15.237937
 30
0.0
 11
21.377209
 21
15.266616
 31
0.0
  0
LINE
  8
CLIP
 10
21.377209
 20
15.266616
 30
0.0
 11
21.357076
 21
15.296938
 31
0.0
  0
LINE
  8
CLIP
 10
21.158218
 20
15.118715
 30
0.0
 11
21.294437
 21
15.11502
 31
0.0
  0
LINE
  8
CLIP
 10
21.178534
 20
15.177716
 30
0.0
 11
21.314752
 21
15.17402
 31
0.0
  0
LINE
  8
CLIP
 10
21.140511
 20
15.148972
 30
0.0
 11
21.178534
 21
15.177716
 31
0.0
  0
LINE
  8
CLIP
 10
21.158218
 20
15.118715
 30
0.0
 11
21.140511
 21
15.148972
 31
0.0
  0
LINE
  8
CLIP
 10
21.294437
 20
15.11502
 30
0.0
 11
21.334885
 21
15.143698
 31
0.0
  0
LINE
  8
CLIP
 10
21.334885
 20
15.143698
 30
0.0
 11
21.314752
 21
15.17402
 31
0.0
  0
LINE
  8
CLIP
 10
21.115894
 20
14.995798
 30
0.0
 11
21.252113
 21
14.992102
 31
0.0
  0
LINE
  8
CLIP
 10
21.13621
 20
15.054798
 30
0.0
 11
21.272428
 21
15.051103
 31
0.0
  0
LINE
  8
CLIP
 10
21.098187
 20
15.026054
 30
0.0
 11
21.13621
 21
15.054798
 31
0.0
  0
LINE
  8
CLIP
 10
21.115894
 20
14.995798
 30
0.0
 11
21.098187
 21
15.026054
 31
0.0
  0
LINE
  8
CLIP
 10
21.252113
 20
14.992102
 30
0.0
 11
21.292561
 21
15.020781
 31
0.0
  0
LINE
  8
CLIP
 10
21.292561
 20
15.020781
 30
0.0
 11
21.272428
 21
15.051103
 31
0.0
  0
LINE
  8
CLIP
 10
21.073571
 20
14.872881
 30
0.0
 11
21.209789
 21
14.869185
 31
0.0
  0
LINE
  8
CLIP
 10
21.093886
 20
14.931881
 30
0.0
 11
21.230104
 21
14.928185
 31
0.0
  0
LINE
  8
CLIP
 10
21.055863
 20
14.903137
 30
0.0
 11
21.093886
 21
14.931881
 31
0.0
  0
LINE
  8
CLIP
 10
21.073571
 20
14.872881
 30
0.0
 11
21.055863
 21
14.903137
 31
0.0
  0
LINE
  8
CLIP
 10
21.209789
 20
14.869185
 30
0.0
 11
21.250237
 21
14.897863
 31
0.0
  0
LINE
  8
CLIP
 10
21.250237
 20
14.897863
 30
0.0
 11
21.230104
 21
14.928185
 31
0.0
  0
LINE
  8
CLIP
 10
21.031247
 20
14.749963
 30
0.0
 11
21.167465
 21
14.746268
 31
0.0
  0
LINE
  8
CLIP
 10
21.051562
 20
14.808964
 30
0.0
 11
21.18778
 21
14.805268
 31
0.0
  0
LINE
  8
CLIP
 10
21.013539
 20
14.780219
 30
0.0
 11
21.051562
 21
14.808964
 31
0.0
  0
LINE
  8
CLIP
 10
21.031247
 20
14.749963
 30
0.0
 11
21.013539
 21
14.780219
 31
0.0
  0
LINE
  8
CLIP
 10
21.167465
 20
14.746268
 30
0.0
 11
21.207913
 21
14.774946
 31
0.0
  0
LINE
  8
CLIP
 10
21.207913
 20
14.774946
 30
0.0
 11
21.18778
 21
14.805268
 31
0.0
  0
LINE
  8
CLIP
 10
20.988923
 20
14.627046
 30
0.0
 11
21.125141
 21
14.62335
 31
0.0
  0
LINE
  8
CLIP
 10
21.009238
 20
14.686046
 30
0.0
 11
21.145457
 21
14.682351
 31
0.0
  0
LINE
  8
CLIP
 10
20.971216
 20
14.657302
 30
0.0
 11
21.009238
 21
14.686046
 31
0.0
  0
LINE
  8
CLIP
 10
20.988923
 20
14.627046
 30
0.0
 11
20.971216
 21
14.657302
 31
0.0
  0
LINE
  8
CLIP
 10
21.125141
 20
14.62335
 30
0.0
 11
21.165589
 21
14.652029
 31
0.0
  0
LINE
  8
CLIP
 10
21.165589
 20
14.652029
 30
0.0
 11
21.145457
 21
14.682351
 31
0.0
  0
LINE
  8
CLIP
 10
20.955874
 20
14.503877
 30
0.0
 11
21.082817
 21
14.500433
 31
0.0
  0
LINE
  8
CLIP
 10
20.966914
 20
14.563129
 30
0.0
 11
21.103133
 21
14.559433
 31
0.0
  0
LINE
  8
CLIP
 10
20.928892
 20
14.534384
 30
0.0
 11
20.966914
 21
14.563129
 31
0.0
  0
LINE
  8
CLIP
 10
21.082817
 20
14.500433
 30
0.0
 11
21.123265
 21
14.529111
 31
0.0
  0
LINE
  8
CLIP
 10
21.123265
 20
14.529111
 30
0.0
 11
21.103133
 21
14.559433
 31
0.0
  0
LINE
  8
CLIP
 10
21.327514
 20
15.610385
 30
0.0
 11
21.305505
 21
15.546468
 31
0.0
  0
LINE
  8
CLIP
 10
21.463732
 20
15.606689
 30
0.0
 11
21.441724
 21
15.542772
 31
0.0
  0
LINE
  8
CLIP
 10
21.421408
 20
15.483772
 30
0.0
 11
21.3994
 21
15.419855
 31
0.0
  0
LINE
  8
CLIP
 10
21.28519
 20
15.487468
 30
0.0
 11
21.263182
 21
15.423551
 31
0.0
  0
LINE
  8
CLIP
 10
21.242866
 20
15.36455
 30
0.0
 11
21.220858
 21
15.300633
 31
0.0
  0
LINE
  8
CLIP
 10
21.379084
 20
15.360855
 30
0.0
 11
21.357076
 21
15.296938
 31
0.0
  0
LINE
  8
CLIP
 10
21.200542
 20
15.241633
 30
0.0
 11
21.178534
 21
15.177716
 31
0.0
  0
LINE
  8
CLIP
 10
21.33676
 20
15.237937
 30
0.0
 11
21.314752
 21
15.17402
 31
0.0
  0
LINE
  8
CLIP
 10
21.158218
 20
15.118715
 30
0.0
 11
21.13621
 21
15.054798
 31
0.0
  0
LINE
  8
CLIP
 10
21.294437
 20
15.11502
 30
0.0
 11
21.272428
 21
15.051103
 31
0.0
  0
LINE
  8
CLIP
 10
21.115894
 20
14.995798
 30
0.0
 11
21.093886
 21
14.931881
 31
0.0
  0
LINE
  8
CLIP
 10
21.252113
 20
14.992102
 30
0.0
 11
21.230104
 21
14.928185
 31
0.0
  0
LINE
  8
CLIP
 10
21.073571
 20
14.872881
 30
0.0
 11
21.051562
 21
14.808964
 31
0.0
  0
LINE
  8
CLIP
 10
21.209789
 20
14.869185
 30
0.0
 11
21.18778
 21
14.805268
 31
0.0
  0
LINE
  8
CLIP
 10
21.031247
 20
14.749963
 30
0.0
 11
21.009238
 21
14.686046
 31
0.0
  0
LINE
  8
CLIP
 10
21.167465
 20
14.746268
 30
0.0
 11
21.145457
 21
14.682351
 31
0.0
  0
LINE
  8
CLIP
 10
20.988923
 20
14.627046
 30
0.0
 11
20.966914
 21
14.563129
 31
0.0
  0
LINE
  8
CLIP
 10
21.125141
 20
14.62335
 30
0.0
 11
21.103133
 21
14.559433
 31
0.0
  0
LINE
  8
CLIP
 10
21.082817
 20
14.500433
 30
0.0
 11
21.079454
 21
14.490666
 31
0.0
  0
LINE
  8
CLIP
 10
20.955874
 20
14.503877
 30
0.0
 11
20.928892
 21
14.534384
 31
0.0
  0
LINE
  8
CLIP
 10
21.020685
 20
16.018761
 30
0.0
 11
23.384482
 21
15.204841
 31
0.0
  0
LINE
  8
CLIP
 10
22.374152
 20
14.015524
 30
0.0
 11
22.34717
 21
14.046032
 31
0.0
  0
LINE
  8
CLIP
 10
22.501095
 20
14.012081
 30
0.0
 11
22.497732
 21
14.002314
 31
0.0
  0
LINE
  8
CLIP
 10
22.543419
 20
14.134998
 30
0.0
 11
22.521411
 21
14.071081
 31
0.0
  0
LINE
  8
CLIP
 10
22.407201
 20
14.138693
 30
0.0
 11
22.385192
 21
14.074776
 31
0.0
  0
LINE
  8
CLIP
 10
22.585743
 20
14.257915
 30
0.0
 11
22.563734
 21
14.193998
 31
0.0
  0
LINE
  8
CLIP
 10
22.449525
 20
14.261611
 30
0.0
 11
22.427516
 21
14.197694
 31
0.0
  0
LINE
  8
CLIP
 10
22.628067
 20
14.380833
 30
0.0
 11
22.606058
 21
14.316916
 31
0.0
  0
LINE
  8
CLIP
 10
22.491848
 20
14.384528
 30
0.0
 11
22.46984
 21
14.320611
 31
0.0
  0
LINE
  8
CLIP
 10
22.670391
 20
14.50375
 30
0.0
 11
22.648382
 21
14.439833
 31
0.0
  0
LINE
  8
CLIP
 10
22.534172
 20
14.507446
 30
0.0
 11
22.512164
 21
14.443529
 31
0.0
  0
LINE
  8
CLIP
 10
22.712714
 20
14.626668
 30
0.0
 11
22.690706
 21
14.562751
 31
0.0
  0
LINE
  8
CLIP
 10
22.576496
 20
14.630363
 30
0.0
 11
22.554488
 21
14.566446
 31
0.0
  0
LINE
  8
CLIP
 10
22.755038
 20
14.749585
 30
0.0
 11
22.73303
 21
14.685668
 31
0.0
  0
LINE
  8
CLIP
 10
22.61882
 20
14.753281
 30
0.0
 11
22.596812
 21
14.689364
 31
0.0
  0
LINE
  8
CLIP
 10
22.797362
 20
14.872502
 30
0.0
 11
22.775354
 21
14.808585
 31
0.0
  0
LINE
  8
CLIP
 10
22.661144
 20
14.876198
 30
0.0
 11
22.639136
 21
14.812281
 31
0.0
  0
LINE
  8
CLIP
 10
22.703468
 20
14.999115
 30
0.0
 11
22.681459
 21
14.935198
 31
0.0
  0
LINE
  8
CLIP
 10
22.839686
 20
14.99542
 30
0.0
 11
22.817678
 21
14.931503
 31
0.0
  0
LINE
  8
CLIP
 10
22.88201
 20
15.118337
 30
0.0
 11
22.860001
 21
15.05442
 31
0.0
  0
LINE
  8
CLIP
 10
22.745792
 20
15.122033
 30
0.0
 11
22.723783
 21
15.058116
 31
0.0
  0
LINE
  8
CLIP
 10
22.541543
 20
14.040759
 30
0.0
 11
22.521411
 21
14.071081
 31
0.0
  0
LINE
  8
CLIP
 10
22.501095
 20
14.012081
 30
0.0
 11
22.541543
 21
14.040759
 31
0.0
  0
LINE
  8
CLIP
 10
22.34717
 20
14.046032
 30
0.0
 11
22.385192
 21
14.074776
 31
0.0
  0
LINE
  8
CLIP
 10
22.385192
 20
14.074776
 30
0.0
 11
22.521411
 21
14.071081
 31
0.0
  0
LINE
  8
CLIP
 10
22.374152
 20
14.015524
 30
0.0
 11
22.501095
 21
14.012081
 31
0.0
  0
LINE
  8
CLIP
 10
22.583867
 20
14.163676
 30
0.0
 11
22.563734
 21
14.193998
 31
0.0
  0
LINE
  8
CLIP
 10
22.543419
 20
14.134998
 30
0.0
 11
22.583867
 21
14.163676
 31
0.0
  0
LINE
  8
CLIP
 10
22.407201
 20
14.138693
 30
0.0
 11
22.389493
 21
14.16895
 31
0.0
  0
LINE
  8
CLIP
 10
22.389493
 20
14.16895
 30
0.0
 11
22.427516
 21
14.197694
 31
0.0
  0
LINE
  8
CLIP
 10
22.427516
 20
14.197694
 30
0.0
 11
22.563734
 21
14.193998
 31
0.0
  0
LINE
  8
CLIP
 10
22.407201
 20
14.138693
 30
0.0
 11
22.543419
 21
14.134998
 31
0.0
  0
LINE
  8
CLIP
 10
22.626191
 20
14.286594
 30
0.0
 11
22.606058
 21
14.316916
 31
0.0
  0
LINE
  8
CLIP
 10
22.585743
 20
14.257915
 30
0.0
 11
22.626191
 21
14.286594
 31
0.0
  0
LINE
  8
CLIP
 10
22.449525
 20
14.261611
 30
0.0
 11
22.431817
 21
14.291867
 31
0.0
  0
LINE
  8
CLIP
 10
22.431817
 20
14.291867
 30
0.0
 11
22.46984
 21
14.320611
 31
0.0
  0
LINE
  8
CLIP
 10
22.46984
 20
14.320611
 30
0.0
 11
22.606058
 21
14.316916
 31
0.0
  0
LINE
  8
CLIP
 10
22.449525
 20
14.261611
 30
0.0
 11
22.585743
 21
14.257915
 31
0.0
  0
LINE
  8
CLIP
 10
22.668515
 20
14.409511
 30
0.0
 11
22.648382
 21
14.439833
 31
0.0
  0
LINE
  8
CLIP
 10
22.628067
 20
14.380833
 30
0.0
 11
22.668515
 21
14.409511
 31
0.0
  0
LINE
  8
CLIP
 10
22.491848
 20
14.384528
 30
0.0
 11
22.474141
 21
14.414784
 31
0.0
  0
LINE
  8
CLIP
 10
22.474141
 20
14.414784
 30
0.0
 11
22.512164
 21
14.443529
 31
0.0
  0
LINE
  8
CLIP
 10
22.512164
 20
14.443529
 30
0.0
 11
22.648382
 21
14.439833
 31
0.0
  0
LINE
  8
CLIP
 10
22.491848
 20
14.384528
 30
0.0
 11
22.628067
 21
14.380833
 31
0.0
  0
LINE
  8
CLIP
 10
22.710839
 20
14.532429
 30
0.0
 11
22.690706
 21
14.562751
 31
0.0
  0
LINE
  8
CLIP
 10
22.670391
 20
14.50375
 30
0.0
 11
22.710839
 21
14.532429
 31
0.0
  0
LINE
  8
CLIP
 10
22.534172
 20
14.507446
 30
0.0
 11
22.516465
 21
14.537702
 31
0.0
  0
LINE
  8
CLIP
 10
22.516465
 20
14.537702
 30
0.0
 11
22.554488
 21
14.566446
 31
0.0
  0
LINE
  8
CLIP
 10
22.554488
 20
14.566446
 30
0.0
 11
22.690706
 21
14.562751
 31
0.0
  0
LINE
  8
CLIP
 10
22.534172
 20
14.507446
 30
0.0
 11
22.670391
 21
14.50375
 31
0.0
  0
LINE
  8
CLIP
 10
22.753163
 20
14.655346
 30
0.0
 11
22.73303
 21
14.685668
 31
0.0
  0
LINE
  8
CLIP
 10
22.712714
 20
14.626668
 30
0.0
 11
22.753163
 21
14.655346
 31
0.0
  0
LINE
  8
CLIP
 10
22.576496
 20
14.630363
 30
0.0
 11
22.558789
 21
14.660619
 31
0.0
  0
LINE
  8
CLIP
 10
22.558789
 20
14.660619
 30
0.0
 11
22.596812
 21
14.689364
 31
0.0
  0
LINE
  8
CLIP
 10
22.596812
 20
14.689364
 30
0.0
 11
22.73303
 21
14.685668
 31
0.0
  0
LINE
  8
CLIP
 10
22.576496
 20
14.630363
 30
0.0
 11
22.712714
 21
14.626668
 31
0.0
  0
LINE
  8
CLIP
 10
22.795486
 20
14.778263
 30
0.0
 11
22.775354
 21
14.808585
 31
0.0
  0
LINE
  8
CLIP
 10
22.755038
 20
14.749585
 30
0.0
 11
22.795486
 21
14.778263
 31
0.0
  0
LINE
  8
CLIP
 10
22.61882
 20
14.753281
 30
0.0
 11
22.601113
 21
14.783537
 31
0.0
  0
LINE
  8
CLIP
 10
22.601113
 20
14.783537
 30
0.0
 11
22.639136
 21
14.812281
 31
0.0
  0
LINE
  8
CLIP
 10
22.639136
 20
14.812281
 30
0.0
 11
22.775354
 21
14.808585
 31
0.0
  0
LINE
  8
CLIP
 10
22.61882
 20
14.753281
 30
0.0
 11
22.755038
 21
14.749585
 31
0.0
  0
LINE
  8
CLIP
 10
22.83781
 20
14.901181
 30
0.0
 11
22.817678
 21
14.931503
 31
0.0
  0
LINE
  8
CLIP
 10
22.797362
 20
14.872502
 30
0.0
 11
22.83781
 21
14.901181
 31
0.0
  0
LINE
  8
CLIP
 10
22.661144
 20
14.876198
 30
0.0
 11
22.643437
 21
14.906454
 31
0.0
  0
LINE
  8
CLIP
 10
22.643437
 20
14.906454
 30
0.0
 11
22.681459
 21
14.935198
 31
0.0
  0
LINE
  8
CLIP
 10
22.681459
 20
14.935198
 30
0.0
 11
22.817678
 21
14.931503
 31
0.0
  0
LINE
  8
CLIP
 10
22.661144
 20
14.876198
 30
0.0
 11
22.797362
 21
14.872502
 31
0.0
  0
LINE
  8
CLIP
 10
22.880134
 20
15.024098
 30
0.0
 11
22.860001
 21
15.05442
 31
0.0
  0
LINE
  8
CLIP
 10
22.839686
 20
14.99542
 30
0.0
 11
22.880134
 21
15.024098
 31
0.0
  0
LINE
  8
CLIP
 10
22.703468
 20
14.999115
 30
0.0
 11
22.68576
 21
15.029372
 31
0.0
  0
LINE
  8
CLIP
 10
22.68576
 20
15.029372
 30
0.0
 11
22.723783
 21
15.058116
 31
0.0
  0
LINE
  8
CLIP
 10
22.723783
 20
15.058116
 30
0.0
 11
22.860001
 21
15.05442
 31
0.0
  0
LINE
  8
CLIP
 10
22.703468
 20
14.999115
 30
0.0
 11
22.839686
 21
14.99542
 31
0.0
  0
LINE
  8
CLIP
 10
22.922458
 20
15.147016
 30
0.0
 11
22.902325
 21
15.177338
 31
0.0
  0
LINE
  8
CLIP
 10
22.88201
 20
15.118337
 30
0.0
 11
22.922458
 21
15.147016
 31
0.0
  0
LINE
  8
CLIP
 10
22.745792
 20
15.122033
 30
0.0
 11
22.728084
 21
15.152289
 31
0.0
  0
LINE
  8
CLIP
 10
22.728084
 20
15.152289
 30
0.0
 11
22.766107
 21
15.181033
 31
0.0
  0
LINE
  8
CLIP
 10
22.766107
 20
15.181033
 30
0.0
 11
22.902325
 21
15.177338
 31
0.0
  0
LINE
  8
CLIP
 10
22.745792
 20
15.122033
 30
0.0
 11
22.88201
 21
15.118337
 31
0.0
  0
LINE
  8
CLIP
 10
22.924334
 20
15.241255
 30
0.0
 11
22.902325
 21
15.177338
 31
0.0
  0
LINE
  8
CLIP
 10
22.788115
 20
15.24495
 30
0.0
 11
22.766107
 21
15.181033
 31
0.0
  0
LINE
  8
CLIP
 10
22.964782
 20
15.269933
 30
0.0
 11
22.944649
 21
15.300255
 31
0.0
  0
LINE
  8
CLIP
 10
22.924334
 20
15.241255
 30
0.0
 11
22.964782
 21
15.269933
 31
0.0
  0
LINE
  8
CLIP
 10
22.770408
 20
15.275206
 30
0.0
 11
22.808431
 21
15.303951
 31
0.0
  0
LINE
  8
CLIP
 10
22.788115
 20
15.24495
 30
0.0
 11
22.770408
 21
15.275206
 31
0.0
  0
LINE
  8
CLIP
 10
22.788115
 20
15.24495
 30
0.0
 11
22.924334
 21
15.241255
 31
0.0
  0
LINE
  8
CLIP
 10
22.808431
 20
15.303951
 30
0.0
 11
22.944649
 21
15.300255
 31
0.0
  0
LINE
  8
CLIP
 10
22.840218
 20
15.396267
 30
0.0
 11
22.808431
 21
15.303951
 31
0.0
  0
LINE
  8
CLIP
 10
22.963135
 20
15.353943
 30
0.0
 11
22.944649
 21
15.300255
 31
0.0
  0
LINE
  8
CLIP
 10
22.368396
 20
13.826345
 30
0.0
 11
22.374152
 21
14.015524
 31
0.0
  0
LINE
  8
CLIP
 10
22.368396
 20
13.826345
 30
0.0
 11
22.497732
 21
14.002314
 31
0.0
  0
ARC
  8
CLIP
  6
CONTINUOUS
 10
22.768286
 20
14.986336
 30
0.0
 40
0.56374
 50
50.714502
 51
62.704341
  0
LINE
  8
PANEL
 10
17.409547
 20
18.980809
 30
0.0
 11
33.344454
 21
13.493981
 31
0.0
  0
LINE
  8
0
 10
33.524792
 20
13.334257
 30
0.0
 11
32.42447
 21
14.308804
 31
0.0
  0
LINE
  8
0
 10
32.42447
 20
14.308804
 30
0.0
 11
33.491769
 21
17.408467
 31
0.0
  0
LINE
  8
0
 10
31.065798
 20
13.740803
 30
0.0
 11
31.967947
 21
12.982965
 31
0.0
  0
LINE
  8
0
 10
33.524792
 20
13.334257
 30
0.0
 11
31.065798
 21
13.740803
 31
0.0
  0
LINE
  8
0
 10
30.507676
 20
8.74203
 30
0.0
 11
31.967947
 21
12.982965
 31
0.0
  0
LINE
  8
DIM
 10
27.953665
 20
18.720062
 30
0.0
 11
28.531748
 21
18.720062
 31
0.0
  0
LINE
  8
DIM
 10
27.652909
 20
7.791493
 30
0.0
 11
28.162552
 21
7.791493
 31
0.0
  0
LINE
  8
DIM
 10
26.109795
 20
13.027163
 30
0.0
 11
27.652909
 21
7.791493
 31
0.0
  0
SOLID
  8
DIM
 10
26.069828
 20
13.015383
 30
0.0
 11
26.149762
 21
13.038942
 31
0.0
 12
26.039118
 22
13.266965
 32
0.0
 13
26.039118
 23
13.266965
 33
0.0
  0
LINE
  8
DIM
 10
19.72675
 20
12.643909
 30
0.0
 11
19.97675
 21
12.643909
 31
0.0
  0
LINE
  8
DIM
 10
16.446323
 20
14.670963
 30
0.0
 11
19.72675
 21
12.643909
 31
0.0
  0
SOLID
  8
DIM
 10
16.42442
 20
14.635517
 30
0.0
 11
16.468225
 21
14.706408
 31
0.0
 12
16.23365
 22
14.802379
 32
0.0
 13
16.23365
 23
14.802379
 33
0.0
  0
LINE
  8
DIM
 10
25.235838
 20
22.811747
 30
0.0
 11
25.810335
 21
22.811747
 31
0.0
  0
LINE
  8
DIM
 10
26.941824
 20
21.322593
 30
0.0
 11
27.680462
 21
21.322593
 31
0.0
  0
LINE
  8
DIM
 10
22.922843
 20
16.827799
 30
0.0
 11
26.941824
 21
21.322593
 31
0.0
  0
SOLID
  8
DIM
 10
22.953904
 20
16.800026
 30
0.0
 11
22.891782
 21
16.855572
 31
0.0
 12
22.756206
 22
16.641433
 32
0.0
 13
22.756206
 23
16.641433
 33
0.0
  0
LINE
  8
WOOD
 10
16.621774
 20
16.509616
 30
0.0
 11
16.621774
 21
7.822811
 31
0.0
  0
LINE
  8
WOOD
 10
18.119712
 20
7.830186
 30
0.0
 11
16.621774
 21
7.822811
 31
0.0
  0
LINE
  8
WOOD
 10
18.119712
 20
15.993835
 30
0.0
 11
18.119712
 21
7.830186
 31
0.0
  0
LINE
  8
CLIP
  6
DASHED
 10
23.425178
 20
15.323031
 30
0.0
 11
23.757388
 21
16.28784
 31
0.0
  0
LINE
  8
CLIP
  6
DASHED
 10
21.081755
 20
16.19612
 30
0.0
 11
21.393592
 21
17.101761
 31
0.0
  0
TEXT
  8
DIM
 10
20.72675
 20
12.456409
 30
0.0
 40
0.375
  1
PA-5 KEEPER
  7
ROMAND
  0
LINE
  8
DIM
 10
19.72675
 20
12.643909
 30
0.0
 11
20.47675
 21
12.643909
 31
0.0
  0
LINE
  8
WOOD
 10
16.803437
 20
17.108077
 30
0.0
 11
31.630427
 21
12.002735
 31
0.0
  0
LINE
  8
WOOD
 10
16.701697
 20
16.812603
 30
0.0
 11
31.528687
 21
11.707261
 31
0.0
  0
LINE
  8
WOOD
 10
16.599957
 20
16.517128
 30
0.0
 11
31.426947
 21
11.411786
 31
0.0
  0
LINE
  8
CLIP
 10
17.745582
 20
15.428786
 30
0.0
 11
17.590073
 21
15.46086
 31
0.0
  0
LINE
  8
CLIP
 10
17.745582
 20
15.428786
 30
0.0
 11
17.606815
 21
15.396852
 31
0.0
  0
LINE
  8
CLIP
 10
16.233567
 20
15.397497
 30
0.0
 11
17.606815
 21
15.396852
 31
0.0
  0
LINE
  8
CLIP
 10
16.233597
 20
15.461497
 30
0.0
 11
17.590073
 21
15.46086
 31
0.0
  0
LINE
  8
CLIP
 10
16.208515
 20
15.285423
 30
0.0
 11
16.235376
 21
15.285759
 31
0.0
  0
LINE
  8
CLIP
 10
16.20865
 20
15.572947
 30
0.0
 11
16.23365
 21
15.572936
 31
0.0
  0
LINE
  8
CLIP
 10
16.20865
 20
15.572947
 30
0.0
 11
16.208515
 21
15.285423
 31
0.0
  0
LINE
  8
CLIP
 10
16.23365
 20
14.255345
 30
0.0
 11
15.92982
 21
13.850501
 31
0.0
  0
LINE
  8
CLIP
 10
16.23365
 20
16.026564
 30
0.0
 11
16.23365
 21
14.255345
 31
0.0
  0
ARC
  8
FLASH
 10
15.815638
 20
13.861653
 30
0.0
 40
0.109065
 50
146.740963
 51
267.280518
  0
LINE
  8
FLASH
 10
15.810464
 20
13.752711
 30
0.0
 11
16.206573
 21
13.814906
 31
0.0
  0
LINE
  8
FLASH
 10
16.125581
 20
14.322609
 30
0.0
 11
15.724438
 21
13.921466
 31
0.0
  0
LINE
  8
WOOD
 10
16.803437
 20
17.108077
 30
0.0
 11
16.599957
 21
16.517128
 31
0.0
  0
TEXT
  8
DIM
 10
28.661324
 20
18.537699
 30
0.0
 40
0.375
  1
30# ROOFING FELT
  7
ROMAND
  0
LINE
  8
PANEL
 10
17.409547
 20
18.980809
 30
0.0
 11
16.941568
 21
17.621701
 31
0.0
  0
LINE
  8
PANEL
 10
16.941568
 20
17.621701
 30
0.0
 11
31.781747
 21
12.511817
 31
0.0
  0
LINE
  8
CLIP
 10
21.020685
 20
16.018761
 30
0.0
 11
21.081755
 21
16.19612
 31
0.0
  0
LINE
  8
CLIP
 10
23.384482
 20
15.204841
 30
0.0
 11
23.445551
 21
15.3822
 31
0.0
  0
LINE
  8
CLIP
  6
DASHED
 10
21.041196
 20
16.078329
 30
0.0
 11
23.404993
 21
15.264408
 31
0.0
  0
TEXT
  8
DIM
 10
28.360986
 20
7.644733
 30
0.0
 40
0.375
  1
PLYWOOD DECKING
  7
ROMAND
  0
TEXT
  8
DIM
 10
27.857686
 20
21.411264
 30
0.0
 40
0.375
  1
SNAP-ON BATTEN
  7
ROMAND
  0
TEXT
  8
DIM
 10
27.857686
 20
20.804121
 30
0.0
 40
0.375
  1
CLIP W/FASTENERS
  7
ROMAND
  0
TEXT
  8
DIM
 10
6.654844
 20
14.975691
 30
0.0
 40
0.375
  1
SEALANT (AT VERTICAL
  7
ROMAND
 72
     2
 11
13.261987
 21
14.975691
 31
0.0
  0
TEXT
  8
DIM
 10
7.261987
 20
14.368548
 30
0.0
 40
0.375
  1
SEAM & UNDER "Z")
  7
ROMAND
 72
     2
 11
13.261987
 21
14.368548
 31
0.0
  0
SOLID
  8
DIM
 10
26.083803
 20
14.373552
 30
0.0
 11
26.007545
 21
14.407156
 31
0.0
 12
25.94486
 22
14.161582
 32
0.0
 13
25.94486
 23
14.161582
 33
0.0
  0
LINE
  8
DIM
 10
26.045674
 20
14.390354
 30
0.0
 11
27.953665
 21
18.720062
 31
0.0
  0
LINE
  8
CLIP
 10
17.450877
 20
17.119914
 30
0.0
 11
17.438614
 21
17.159238
 31
0.0
  0
LINE
  8
CLIP
 10
17.576696
 20
17.156223
 30
0.0
 11
17.559023
 21
17.102917
 31
0.0
  0
LINE
  8
CLIP
 10
17.467191
 20
17.16912
 30
0.0
 11
17.559023
 21
17.102917
 31
0.0
  0
LINE
  8
CLIP
 10
17.342965
 20
16.62283
 30
0.0
 11
17.346215
 21
16.80423
 31
0.0
  0
LINE
  8
CLIP
 10
17.336653
 20
16.8517
 30
0.0
 11
17.36523
 21
16.861581
 31
0.0
  0
LINE
  8
CLIP
 10
17.41689
 20
17.017401
 30
0.0
 11
17.404627
 21
17.056725
 31
0.0
  0
LINE
  8
CLIP
 10
17.41689
 20
17.017401
 30
0.0
 11
17.399217
 21
16.964094
 31
0.0
  0
LINE
  8
CLIP
 10
17.37064
 20
16.954212
 30
0.0
 11
17.399217
 21
16.964094
 31
0.0
  0
LINE
  8
CLIP
 10
17.404627
 20
17.056725
 30
0.0
 11
17.433204
 21
17.066607
 31
0.0
  0
LINE
  8
CLIP
 10
17.382903
 20
16.914888
 30
0.0
 11
17.36523
 21
16.861581
 31
0.0
  0
LINE
  8
CLIP
 10
17.382903
 20
16.914888
 30
0.0
 11
17.37064
 21
16.954212
 31
0.0
  0
LINE
  8
CLIP
 10
17.348916
 20
16.812375
 30
0.0
 11
17.336653
 21
16.8517
 31
0.0
  0
LINE
  8
CLIP
 10
17.348916
 20
16.812375
 30
0.0
 11
17.346215
 21
16.80423
 31
0.0
  0
LINE
  8
CLIP
 10
17.434495
 20
16.75068
 30
0.0
 11
17.46769
 21
16.757233
 31
0.0
  0
LINE
  8
CLIP
 10
17.46769
 20
16.757233
 30
0.0
 11
17.457062
 21
16.795378
 31
0.0
  0
LINE
  8
CLIP
 10
17.542709
 20
17.053711
 30
0.0
 11
17.525036
 21
17.000404
 31
0.0
  0
LINE
  8
CLIP
 10
17.535665
 20
16.962258
 30
0.0
 11
17.525036
 21
17.000404
 31
0.0
  0
LINE
  8
CLIP
 10
17.542709
 20
17.053711
 30
0.0
 11
17.569652
 21
17.064771
 31
0.0
  0
LINE
  8
CLIP
 10
17.569652
 20
17.064771
 30
0.0
 11
17.559023
 21
17.102917
 31
0.0
  0
LINE
  8
CLIP
 10
17.501677
 20
16.859745
 30
0.0
 11
17.491049
 21
16.897891
 31
0.0
  0
LINE
  8
CLIP
 10
17.508722
 20
16.951198
 30
0.0
 11
17.491049
 21
16.897891
 31
0.0
  0
LINE
  8
CLIP
 10
17.508722
 20
16.951198
 30
0.0
 11
17.535665
 21
16.962258
 31
0.0
  0
LINE
  8
CLIP
 10
17.474735
 20
16.848685
 30
0.0
 11
17.501677
 21
16.859745
 31
0.0
  0
LINE
  8
CLIP
 10
17.474735
 20
16.848685
 30
0.0
 11
17.457062
 21
16.795378
 31
0.0
  0
LINE
  8
CLIP
 10
17.450877
 20
17.119914
 30
0.0
 11
17.542709
 21
17.053711
 31
0.0
  0
LINE
  8
CLIP
 10
17.342965
 20
16.62283
 30
0.0
 11
17.434495
 21
16.75068
 31
0.0
  0
LINE
  8
CLIP
 10
17.348916
 20
16.812375
 30
0.0
 11
17.434495
 21
16.75068
 31
0.0
  0
LINE
  8
CLIP
 10
17.36523
 20
16.861581
 30
0.0
 11
17.457062
 21
16.795378
 31
0.0
  0
LINE
  8
CLIP
 10
17.382903
 20
16.914888
 30
0.0
 11
17.474735
 21
16.848685
 31
0.0
  0
LINE
  8
CLIP
 10
17.433204
 20
17.066607
 30
0.0
 11
17.525036
 21
17.000404
 31
0.0
  0
LINE
  8
CLIP
 10
17.41689
 20
17.017401
 30
0.0
 11
17.508722
 21
16.951198
 31
0.0
  0
LINE
  8
CLIP
 10
17.399217
 20
16.964094
 30
0.0
 11
17.491049
 21
16.897891
 31
0.0
  0
LINE
  8
CLIP
 10
17.450877
 20
17.119914
 30
0.0
 11
17.433204
 21
17.066607
 31
0.0
  0
LINE
  8
CLIP
 10
17.644671
 20
17.361249
 30
0.0
 11
17.552839
 21
17.427452
 31
0.0
  0
LINE
  8
CLIP
 10
17.671613
 20
17.372309
 30
0.0
 11
17.660985
 21
17.410455
 31
0.0
  0
LINE
  8
CLIP
 10
17.552839
 20
17.427452
 30
0.0
 11
17.535166
 21
17.374145
 31
0.0
  0
LINE
  8
CLIP
 10
17.501178
 20
17.271633
 30
0.0
 11
17.59301
 21
17.20543
 31
0.0
  0
LINE
  8
CLIP
 10
17.576696
 20
17.156223
 30
0.0
 11
17.603639
 21
17.167284
 31
0.0
  0
LINE
  8
CLIP
 10
17.518852
 20
17.324939
 30
0.0
 11
17.610684
 21
17.258736
 31
0.0
  0
LINE
  8
CLIP
 10
17.626997
 20
17.307942
 30
0.0
 11
17.535166
 21
17.374145
 31
0.0
  0
LINE
  8
CLIP
 10
17.637626
 20
17.269797
 30
0.0
 11
17.626997
 21
17.307942
 31
0.0
  0
LINE
  8
CLIP
 10
17.610684
 20
17.258736
 30
0.0
 11
17.59301
 21
17.20543
 31
0.0
  0
LINE
  8
CLIP
 10
17.603639
 20
17.167284
 30
0.0
 11
17.59301
 21
17.20543
 31
0.0
  0
LINE
  8
CLIP
 10
17.610684
 20
17.258736
 30
0.0
 11
17.637626
 21
17.269797
 31
0.0
  0
LINE
  8
CLIP
 10
17.644671
 20
17.361249
 30
0.0
 11
17.671613
 21
17.372309
 31
0.0
  0
LINE
  8
CLIP
 10
17.644671
 20
17.361249
 30
0.0
 11
17.626997
 21
17.307942
 31
0.0
  0
LINE
  8
CLIP
 10
17.518852
 20
17.324939
 30
0.0
 11
17.501178
 21
17.271633
 31
0.0
  0
LINE
  8
CLIP
 10
17.484865
 20
17.222426
 30
0.0
 11
17.576696
 21
17.156223
 31
0.0
  0
LINE
  8
CLIP
 10
17.506588
 20
17.364264
 30
0.0
 11
17.535166
 21
17.374145
 31
0.0
  0
LINE
  8
CLIP
 10
17.518852
 20
17.324939
 30
0.0
 11
17.506588
 21
17.364264
 31
0.0
  0
LINE
  8
CLIP
 10
17.472601
 20
17.261751
 30
0.0
 11
17.501178
 21
17.271633
 31
0.0
  0
LINE
  8
CLIP
 10
17.484865
 20
17.222426
 30
0.0
 11
17.472601
 21
17.261751
 31
0.0
  0
LINE
  8
CLIP
 10
17.660985
 20
17.410455
 30
0.0
 11
17.569153
 21
17.476658
 31
0.0
  0
LINE
  8
CLIP
 10
17.701987
 20
17.534128
 30
0.0
 11
17.660985
 21
17.410455
 31
0.0
  0
LINE
  8
CLIP
 10
17.552839
 20
17.427452
 30
0.0
 11
17.540575
 21
17.466776
 31
0.0
  0
LINE
  8
CLIP
 10
17.484865
 20
17.222426
 30
0.0
 11
17.467191
 21
17.16912
 31
0.0
  0
LINE
  8
CLIP
 10
17.8045
 20
17.500141
 30
0.0
 11
17.496255
 21
17.602336
 31
0.0
  0
ARC
  8
CLIP
 10
17.527445
 20
17.180447
 30
0.0
 40
0.468338
 50
51.372062
 51
91.943057
  0
LINE
  8
CLIP
 10
17.8045
 20
17.500141
 30
0.0
 11
17.81981
 21
17.54632
 31
0.0
  0
LINE
  8
CLIP
 10
17.599474
 20
17.568115
 30
0.0
 11
17.569153
 21
17.476658
 31
0.0
  0
LINE
  8
CLIP
 10
17.540575
 20
17.466776
 30
0.0
 11
17.569153
 21
17.476658
 31
0.0
  0
LINE
  8
CLIP
 10
17.496255
 20
17.602336
 30
0.0
 11
17.511566
 21
17.648515
 31
0.0
  0
LINE
  8
CLIP
 10
17.438614
 20
17.159238
 30
0.0
 11
17.467191
 21
17.16912
 31
0.0
  0
POLYLINE
  8
0
 66
     1
 10
0.0
 20
0.0
 30
0.0
 40
0.05
 41
0.05
  0
VERTEX
  8
0
 10
16.399016
 20
15.029763
 30
0.0
 50
322.0
  0
VERTEX
  8
0
 10
16.399016
 20
17.44848
 30
0.0
 50
322.0
  0
VERTEX
  8
0
 10
31.692347
 20
12.182564
 30
0.0
 50
52.0
  0
SEQEND
  8
0
  0
LINE
  8
WOOD
 10
16.621774
 20
16.509616
 30
0.0
 11
18.119712
 21
7.830186
 31
0.0
  0
LINE
  8
WOOD
 10
16.621774
 20
7.822811
 30
0.0
 11
18.119712
 21
15.993835
 31
0.0
  0
ENDSEC
  0
EOF
